ISO-10303-21;
HEADER;
FILE_DESCRIPTION (( 'STEP AP203' ),
    '1' );
FILE_NAME ('End Cap SDR11_001 117 0140 0250.step',
    '2019-12-16T11:41:11',
    ( '' ),
    ( '' ),
    'SwSTEP 2.0',
    'SolidWorks 2019',
    '' );
FILE_SCHEMA (( 'CONFIG_CONTROL_DESIGN' ));
ENDSEC;

DATA;
#1 = CARTESIAN_POINT ( 'NONE',  ( 1.252813675527742490E-14, 0.0000000000000000000, 102.3000000000000114 ) ) ;
#2 = LINE ( 'NONE', #1, #152 ) ;
#3 = DIRECTION ( 'NONE',  ( -0.0000000000000000000, -1.000000000000000000, -0.0000000000000000000 ) ) ;
#4 = CARTESIAN_POINT ( 'NONE',  ( 0.0000000000000000000, 0.0000000000000000000, -124.9999999999999858 ) ) ;
#5 = DATE_AND_TIME ( #268, #113 ) ;
#6 = AXIS2_PLACEMENT_3D ( 'NONE', #25, #24, #23 ) ;
#7 = VECTOR ( 'NONE', #20, 1000.000000000000000 ) ;
#8 = LINE ( 'NONE', #4, #250 ) ;
#9 = DATE_AND_TIME ( #270, #34 ) ;
#10 = DIRECTION ( 'NONE',  ( 0.0000000000000000000, 0.0000000000000000000, -1.000000000000000000 ) ) ;
#11 = DIRECTION ( 'NONE',  ( -0.0000000000000000000, -1.000000000000000000, -0.0000000000000000000 ) ) ;
#12 = PERSON_AND_ORGANIZATION ( #306, #58 ) ;
#13 = DIRECTION ( 'NONE',  ( 0.0000000000000000000, 0.0000000000000000000, -1.000000000000000000 ) ) ;
#14 = DIRECTION ( 'NONE',  ( -0.0000000000000000000, -1.000000000000000000, -0.0000000000000000000 ) ) ;
#15 = CARTESIAN_POINT ( 'NONE',  ( 0.0000000000000000000, -207.0280159960652497, 0.0000000000000000000 ) ) ;
#16 = CC_DESIGN_SECURITY_CLASSIFICATION ( #93, ( #304 ) ) ;
#17 = CARTESIAN_POINT ( 'NONE',  ( 0.0000000000000000000, 0.0000000000000000000, 0.0000000000000000000 ) ) ;
#18 = AXIS2_PLACEMENT_3D ( 'NONE', #244, #30, #28 ) ;
#19 = FACE_OUTER_BOUND ( 'NONE', #157, .T. ) ;
#20 = DIRECTION ( 'NONE',  ( -0.0000000000000000000, -1.000000000000000000, -0.0000000000000000000 ) ) ;
#21 = CARTESIAN_POINT ( 'NONE',  ( 1.530808498934191245E-14, 0.0000000000000000000, 124.9999999999999858 ) ) ;
#22 = LINE ( 'NONE', #21, #7 ) ;
#23 = DIRECTION ( 'NONE',  ( 0.0000000000000000000, 0.0000000000000000000, -1.000000000000000000 ) ) ;
#24 = DIRECTION ( 'NONE',  ( -0.0000000000000000000, -1.000000000000000000, -0.0000000000000000000 ) ) ;
#25 = CARTESIAN_POINT ( 'NONE',  ( 0.0000000000000000000, 0.0000000000000000000, 0.0000000000000000000 ) ) ;
#26 = CYLINDRICAL_SURFACE ( 'NONE', #6, 102.3000000000000114 ) ;
#27 = FACE_OUTER_BOUND ( 'NONE', #208, .T. ) ;
#28 = DIRECTION ( 'NONE',  ( -1.224646799147353207E-16, 0.0000000000000000000, -1.000000000000000000 ) ) ;
#29 = MECHANICAL_CONTEXT ( 'NONE', #229, 'mechanical' ) ;
#30 = DIRECTION ( 'NONE',  ( 1.000000000000000000, 0.0000000000000000000, -1.224646799147353207E-16 ) ) ;
#31 = DIRECTION ( 'NONE',  ( -0.0000000000000000000, -1.000000000000000000, -0.0000000000000000000 ) ) ;
#32 = CARTESIAN_POINT ( 'NONE',  ( 0.0000000000000000000, 0.0000000000000000000, 0.0000000000000000000 ) ) ;
#33 = CYLINDRICAL_SURFACE ( 'NONE', #79, 124.9999999999999858 ) ;
#34 = LOCAL_TIME ( 14, 41, 11.00000000000000000, #193 ) ;
#35 = CIRCLE ( 'NONE', #18, 374.9999999999998863 ) ;
#36 = FACE_OUTER_BOUND ( 'NONE', #178, .T. ) ;
#37 = CARTESIAN_POINT ( 'NONE',  ( 0.0000000000000000000, 0.0000000000000000000, -102.2999999999999972 ) ) ;
#38 = DIRECTION ( 'NONE',  ( 0.0000000000000000000, 0.0000000000000000000, 1.000000000000000000 ) ) ;
#39 = APPROVAL_ROLE ( '' ) ;
#40 = CARTESIAN_POINT ( 'NONE',  ( 0.0000000000000000000, 0.0000000000000000000, 0.0000000000000000000 ) ) ;
#41 = DIRECTION ( 'NONE',  ( -1.000000000000000000, 0.0000000000000000000, 0.0000000000000000000 ) ) ;
#42 = APPROVAL_ROLE ( '' ) ;
#43 = CARTESIAN_POINT ( 'NONE',  ( 0.0000000000000000000, -207.0280159960652497, 3.535812788544628216 ) ) ;
#44 = CALENDAR_DATE ( 2019, 16, 12 ) ;
#45 = CARTESIAN_POINT ( 'NONE',  ( 0.0000000000000000000, 129.0000000000000568, -102.3000000000000256 ) ) ;
#46 = CARTESIAN_POINT ( 'NONE',  ( -6.505213034913026604E-15, 167.9553143373300657, 0.0000000000000000000 ) ) ;
#47 = CARTESIAN_POINT ( 'NONE',  ( 0.0000000000000000000, 145.2553143373301054, -124.9999999999999716 ) ) ;
#48 = DIRECTION ( 'NONE',  ( 0.0000000000000000000, 0.0000000000000000000, -1.000000000000000000 ) ) ;
#49 = DIRECTION ( 'NONE',  ( -0.0000000000000000000, -1.000000000000000000, -0.0000000000000000000 ) ) ;
#50 = CARTESIAN_POINT ( 'NONE',  ( 0.0000000000000000000, 0.0000000000000000000, 0.0000000000000000000 ) ) ;
#51 = AXIS2_PLACEMENT_3D ( 'NONE', #43, #41, #38 ) ;
#52 = CYLINDRICAL_SURFACE ( 'NONE', #71, 102.3000000000000114 ) ;
#53 = FACE_OUTER_BOUND ( 'NONE', #225, .T. ) ;
#54 = DIRECTION ( 'NONE',  ( 0.0000000000000000000, 0.0000000000000000000, -1.000000000000000000 ) ) ;
#55 = EDGE_CURVE ( 'NONE', #232, #239, #139, .T. ) ;
#56 = AXIS2_PLACEMENT_3D ( 'NONE', #40, #191, #269 ) ;
#57 = DIRECTION ( 'NONE',  ( -0.0000000000000000000, -1.000000000000000000, -0.0000000000000000000 ) ) ;
#58 = ORGANIZATION ( 'BELÝRTÝLMEMÝÞ', 'BELÝRTÝLMEMÝÞ', '' ) ;
#59 = CARTESIAN_POINT ( 'NONE',  ( 0.0000000000000000000, 145.2553143373301054, 0.0000000000000000000 ) ) ;
#60 = DIRECTION ( 'NONE',  ( -1.224646799147353207E-16, 0.0000000000000000000, -1.000000000000000000 ) ) ;
#61 = DIRECTION ( 'NONE',  ( 1.000000000000000000, 0.0000000000000000000, -1.224646799147353207E-16 ) ) ;
#62 = CARTESIAN_POINT ( 'NONE',  ( -4.330121813875456013E-16, -207.0280159960652497, -3.535812788544628216 ) ) ;
#63 = CARTESIAN_POINT ( 'NONE',  ( 1.252813675527742806E-14, 129.0000000000000568, 102.3000000000000398 ) ) ;
#64 = DIRECTION ( 'NONE',  ( 0.0000000000000000000, 0.0000000000000000000, 1.000000000000000000 ) ) ;
#65 = TOROIDAL_SURFACE ( 'NONE', #285, -3.535812788544628216, 352.3010740870140580 ) ;
#66 = DIRECTION ( 'NONE',  ( -1.000000000000000000, 0.0000000000000000000, 0.0000000000000000000 ) ) ;
#67 = CARTESIAN_POINT ( 'NONE',  ( 0.0000000000000000000, -207.0280159960652497, 3.535812788544628216 ) ) ;
#68 = ADVANCED_FACE ( 'NONE', ( #134, #133 ), #130, .T. ) ;
#69 = DIRECTION ( 'NONE',  ( 0.0000000000000000000, 0.0000000000000000000, -1.000000000000000000 ) ) ;
#70 = DIRECTION ( 'NONE',  ( -0.0000000000000000000, -1.000000000000000000, -0.0000000000000000000 ) ) ;
#71 = AXIS2_PLACEMENT_3D ( 'NONE', #50, #49, #48 ) ;
#72 = CARTESIAN_POINT ( 'NONE',  ( 0.0000000000000000000, 129.0000000000000568, 0.0000000000000000000 ) ) ;
#73 = FACE_OUTER_BOUND ( 'NONE', #226, .T. ) ;
#74 = DATE_TIME_ROLE ( 'creation_date' ) ;
#75 = CARTESIAN_POINT ( 'NONE',  ( 1.252813675527742490E-14, 0.0000000000000000000, 102.2999999999999972 ) ) ;
#76 = CARTESIAN_POINT ( 'NONE',  ( 0.0000000000000000000, 0.0000000000000000000, -125.0000000000000000 ) ) ;
#77 = PERSON_AND_ORGANIZATION ( #306, #58 ) ;
#78 = DIRECTION ( 'NONE',  ( 0.0000000000000000000, 0.0000000000000000000, -1.000000000000000000 ) ) ;
#79 = AXIS2_PLACEMENT_3D ( 'NONE', #32, #31, #276 ) ;
#80 = DIRECTION ( 'NONE',  ( -0.0000000000000000000, -1.000000000000000000, -0.0000000000000000000 ) ) ;
#81 = SHAPE_DEFINITION_REPRESENTATION ( #183, #199 ) ;
#82 = CARTESIAN_POINT ( 'NONE',  ( 0.0000000000000000000, 145.2553143373301054, 0.0000000000000000000 ) ) ;
#83 = EDGE_CURVE ( 'NONE', #232, #202, #205, .T. ) ;
#84 = DIRECTION ( 'NONE',  ( 0.0000000000000000000, 0.0000000000000000000, -1.000000000000000000 ) ) ;
#85 = DIRECTION ( 'NONE',  ( -0.0000000000000000000, -1.000000000000000000, -0.0000000000000000000 ) ) ;
#86 = CARTESIAN_POINT ( 'NONE',  ( 0.0000000000000000000, -207.0280159960652497, 0.0000000000000000000 ) ) ;
#87 = CARTESIAN_POINT ( 'NONE',  ( -7.727477043432469909E-15, 145.2553143373301054, 0.0000000000000000000 ) ) ;
#88 = CIRCLE ( 'NONE', #51, 352.3010740870140580 ) ;
#89 = FACE_OUTER_BOUND ( 'NONE', #235, .T. ) ;
#90 = CARTESIAN_POINT ( 'NONE',  ( 1.530808498934191245E-14, 145.2553143373301054, 124.9999999999999716 ) ) ;
#91 = CARTESIAN_POINT ( 'NONE',  ( 1.530808498934191561E-14, 0.0000000000000000000, 125.0000000000000000 ) ) ;
#92 = ADVANCED_FACE ( 'NONE', ( #123 ), #194, .T. ) ;
#93 = SECURITY_CLASSIFICATION ( '', '', #292 ) ;
#94 = DIRECTION ( 'NONE',  ( 0.0000000000000000000, 0.0000000000000000000, -1.000000000000000000 ) ) ;
#95 = AXIS2_PLACEMENT_3D ( 'NONE', #59, #57, #54 ) ;
#96 = DIRECTION ( 'NONE',  ( -0.0000000000000000000, -1.000000000000000000, -0.0000000000000000000 ) ) ;
#97 = CARTESIAN_POINT ( 'NONE',  ( 0.0000000000000000000, 0.0000000000000000000, 0.0000000000000000000 ) ) ;
#98 = CARTESIAN_POINT ( 'NONE',  ( 0.0000000000000000000, -207.0280159960652497, 0.0000000000000000000 ) ) ;
#99 = CIRCLE ( 'NONE', #95, 124.9999999999999716 ) ;
#100 = EDGE_CURVE ( 'NONE', #239, #176, #182, .T. ) ;
#101 = AXIS2_PLACEMENT_3D ( 'NONE', #62, #61, #60 ) ;
#102 = DIRECTION ( 'NONE',  ( 0.0000000000000000000, 0.0000000000000000000, -1.000000000000000000 ) ) ;
#103 = DIRECTION ( 'NONE',  ( -0.0000000000000000000, -1.000000000000000000, -0.0000000000000000000 ) ) ;
#104 = CARTESIAN_POINT ( 'NONE',  ( 0.0000000000000000000, 0.0000000000000000000, 0.0000000000000000000 ) ) ;
#105 = CYLINDRICAL_SURFACE ( 'NONE', #165, 124.9999999999999858 ) ;
#106 = COORDINATED_UNIVERSAL_TIME_OFFSET ( 3, 0, .AHEAD. ) ;
#107 = FACE_OUTER_BOUND ( 'NONE', #237, .T. ) ;
#108 = PERSON_AND_ORGANIZATION ( #306, #58 ) ;
#109 = DIRECTION ( 'NONE',  ( 0.0000000000000000000, 0.0000000000000000000, -1.000000000000000000 ) ) ;
#110 = CIRCLE ( 'NONE', #56, 102.2999999999999972 ) ;
#111 = DIRECTION ( 'NONE',  ( -0.0000000000000000000, -1.000000000000000000, -0.0000000000000000000 ) ) ;
#112 = CALENDAR_DATE ( 2019, 16, 12 ) ;
#113 = LOCAL_TIME ( 14, 41, 11.00000000000000000, #190 ) ;
#114 = ADVANCED_FACE ( 'NONE', ( #107 ), #105, .T. ) ;
#115 = CIRCLE ( 'NONE', #101, 352.3010740870140580 ) ;
#116 = DIRECTION ( 'NONE',  ( 0.0000000000000000000, 0.0000000000000000000, -1.000000000000000000 ) ) ;
#117 = AXIS2_PLACEMENT_3D ( 'NONE', #67, #66, #64 ) ;
#118 = CIRCLE ( 'NONE', #117, 374.9999999999998863 ) ;
#119 = DIRECTION ( 'NONE',  ( -0.0000000000000000000, -1.000000000000000000, -0.0000000000000000000 ) ) ;
#120 = CARTESIAN_POINT ( 'NONE',  ( 0.0000000000000000000, -207.0280159960652497, 0.0000000000000000000 ) ) ;
#121 = CARTESIAN_POINT ( 'NONE',  ( 0.0000000000000000000, 0.0000000000000000000, 0.0000000000000000000 ) ) ;
#122 = EDGE_CURVE ( 'NONE', #140, #175, #174, .T. ) ;
#123 = FACE_OUTER_BOUND ( 'NONE', #240, .T. ) ;
#124 = DIRECTION ( 'NONE',  ( 0.0000000000000000000, 0.0000000000000000000, -1.000000000000000000 ) ) ;
#125 = DIRECTION ( 'NONE',  ( -0.0000000000000000000, -1.000000000000000000, -0.0000000000000000000 ) ) ;
#126 = CARTESIAN_POINT ( 'NONE',  ( 0.0000000000000000000, 129.0000000000000568, 0.0000000000000000000 ) ) ;
#127 = DIRECTION ( 'NONE',  ( 0.0000000000000000000, 0.0000000000000000000, -1.000000000000000000 ) ) ;
#128 = DIRECTION ( 'NONE',  ( 0.0000000000000000000, -1.000000000000000000, -0.0000000000000000000 ) ) ;
#129 = CARTESIAN_POINT ( 'NONE',  ( 102.2999999999999972, 0.0000000000000000000, 0.0000000000000000000 ) ) ;
#130 = PLANE ( 'NONE',  #212 ) ;
#131 = AXIS2_PLACEMENT_3D ( 'NONE', #72, #70, #69 ) ;
#132 = CIRCLE ( 'NONE', #131, 102.3000000000000256 ) ;
#133 = FACE_BOUND ( 'NONE', #192, .T. ) ;
#134 = FACE_OUTER_BOUND ( 'NONE', #141, .T. ) ;
#135 = DIRECTION ( 'NONE',  ( -0.0000000000000000000, -1.000000000000000000, -0.0000000000000000000 ) ) ;
#136 = CARTESIAN_POINT ( 'NONE',  ( 0.0000000000000000000, 0.0000000000000000000, -102.3000000000000114 ) ) ;
#137 = AXIS2_PLACEMENT_3D ( 'NONE', #98, #245, #288 ) ;
#138 = TOROIDAL_SURFACE ( 'NONE', #137, -3.535812788544628216, 352.3010740870140580 ) ;
#139 = LINE ( 'NONE', #136, #214 ) ;
#140 = VERTEX_POINT ( 'NONE', #91 ) ;
#141 = EDGE_LOOP ( 'NONE', ( #160, #159 ) ) ;
#142 = APPLICATION_PROTOCOL_DEFINITION ( 'international standard', 'config_control_design', 1994, #229 ) ;
#143 = AXIS2_PLACEMENT_3D ( 'NONE', #82, #80, #78 ) ;
#144 = APPROVAL_DATE_TIME ( #5, #277 ) ;
#145 = CIRCLE ( 'NONE', #143, 124.9999999999999716 ) ;
#146 = AXIS2_PLACEMENT_3D ( 'NONE', #86, #85, #84 ) ;
#147 = APPROVAL_DATE_TIME ( #9, #290 ) ;
#148 = VERTEX_POINT ( 'NONE', #90 ) ;
#149 = ADVANCED_FACE ( 'NONE', ( #89 ), #156, .T. ) ;
#150 = APPROVAL_STATUS ( 'not_yet_approved' ) ;
#151 = ORIENTED_EDGE ( 'NONE', *, *, #122, .F. ) ;
#152 = VECTOR ( 'NONE', #280, 1000.000000000000000 ) ;
#153 = VERTEX_POINT ( 'NONE', #87 ) ;
#154 = APPROVAL_PERSON_ORGANIZATION ( #12, #284, #260 ) ;
#155 = ORIENTED_EDGE ( 'NONE', *, *, #196, .T. ) ;
#156 = TOROIDAL_SURFACE ( 'NONE', #146, -3.535812788544628216, 374.9999999999998863 ) ;
#157 = EDGE_LOOP ( 'NONE', ( #221, #223, #224 ) ) ;
#158 = ORIENTED_EDGE ( 'NONE', *, *, #246, .F. ) ;
#159 = ORIENTED_EDGE ( 'NONE', *, *, #122, .T. ) ;
#160 = ORIENTED_EDGE ( 'NONE', *, *, #256, .T. ) ;
#161 = ORIENTED_EDGE ( 'NONE', *, *, #100, .T. ) ;
#162 = DIRECTION ( 'NONE',  ( 1.000000000000000000, 0.0000000000000000000, 0.0000000000000000000 ) ) ;
#163 = ORIENTED_EDGE ( 'NONE', *, *, #55, .T. ) ;
#164 = AXIS2_PLACEMENT_3D ( 'NONE', #97, #96, #94 ) ;
#165 = AXIS2_PLACEMENT_3D ( 'NONE', #104, #103, #102 ) ;
#166 = ORIENTED_EDGE ( 'NONE', *, *, #262, .T. ) ;
#167 = DIRECTION ( 'NONE',  ( 0.0000000000000000000, 0.0000000000000000000, 1.000000000000000000 ) ) ;
#168 = ORIENTED_EDGE ( 'NONE', *, *, #169, .T. ) ;
#169 = EDGE_CURVE ( 'NONE', #148, #230, #145, .T. ) ;
#170 = CARTESIAN_POINT ( 'NONE',  ( 0.0000000000000000000, 0.0000000000000000000, 0.0000000000000000000 ) ) ;
#171 = ORIENTED_EDGE ( 'NONE', *, *, #254, .F. ) ;
#172 = DESIGN_CONTEXT ( 'detailed design', #243, 'design' ) ;
#173 = ORIENTED_EDGE ( 'NONE', *, *, #265, .F. ) ;
#174 = CIRCLE ( 'NONE', #164, 125.0000000000000000 ) ;
#175 = VERTEX_POINT ( 'NONE', #76 ) ;
#176 = VERTEX_POINT ( 'NONE', #75 ) ;
#177 = CIRCLE ( 'NONE', #266, 125.0000000000000000 ) ;
#178 = EDGE_LOOP ( 'NONE', ( #171, #168, #166, #151 ) ) ;
#179 = LOCAL_TIME ( 14, 41, 11.00000000000000000, #106 ) ;
#180 = AXIS2_PLACEMENT_3D ( 'NONE', #121, #111, #109 ) ;
#181 = ADVANCED_FACE ( 'NONE', ( #73 ), #138, .F. ) ;
#182 = CIRCLE ( 'NONE', #180, 102.2999999999999972 ) ;
#183 = PRODUCT_DEFINITION_SHAPE ( 'NONE', 'NONE',  #274 ) ;
#184 = AXIS2_PLACEMENT_3D ( 'NONE', #120, #119, #116 ) ;
#185 = ORIENTED_EDGE ( 'NONE', *, *, #100, .F. ) ;
#186 = ORIENTED_EDGE ( 'NONE', *, *, #83, .F. ) ;
#187 = EDGE_CURVE ( 'NONE', #202, #232, #132, .T. ) ;
#188 = ORIENTED_EDGE ( 'NONE', *, *, #264, .F. ) ;
#189 = ORIENTED_EDGE ( 'NONE', *, *, #55, .F. ) ;
#190 = COORDINATED_UNIVERSAL_TIME_OFFSET ( 3, 0, .AHEAD. ) ;
#191 = DIRECTION ( 'NONE',  ( -0.0000000000000000000, -1.000000000000000000, -0.0000000000000000000 ) ) ;
#192 = EDGE_LOOP ( 'NONE', ( #185, #173 ) ) ;
#193 = COORDINATED_UNIVERSAL_TIME_OFFSET ( 3, 0, .AHEAD. ) ;
#194 = TOROIDAL_SURFACE ( 'NONE', #184, -3.535812788544628216, 374.9999999999998863 ) ;
#195 = ORIENTED_EDGE ( 'NONE', *, *, #265, .T. ) ;
#196 = EDGE_CURVE ( 'NONE', #231, #230, #118, .T. ) ;
#197 = DATE_AND_TIME ( #44, #279 ) ;
#198 = ORIENTED_EDGE ( 'NONE', *, *, #264, .T. ) ;
#199 = ADVANCED_BREP_SHAPE_REPRESENTATION ( 'End Cap SDR11_001 117 0140 0250', ( #278, #251 ), #211 ) ;
#200 = ORIENTED_EDGE ( 'NONE', *, *, #187, .F. ) ;
#201 = ORIENTED_EDGE ( 'NONE', *, *, #262, .F. ) ;
#202 = VERTEX_POINT ( 'NONE', #63 ) ;
#203 = ORIENTED_EDGE ( 'NONE', *, *, #256, .F. ) ;
#204 = AXIS2_PLACEMENT_3D ( 'NONE', #126, #125, #124 ) ;
#205 = CIRCLE ( 'NONE', #204, 102.3000000000000256 ) ;
#206 = ORIENTED_EDGE ( 'NONE', *, *, #254, .T. ) ;
#207 = ORIENTED_EDGE ( 'NONE', *, *, #220, .T. ) ;
#208 = EDGE_LOOP ( 'NONE', ( #200, #198, #195, #189 ) ) ;
#209 = ORIENTED_EDGE ( 'NONE', *, *, #220, .F. ) ;
#210 = ORIENTED_EDGE ( 'NONE', *, *, #246, .T. ) ;
#211 =( GEOMETRIC_REPRESENTATION_CONTEXT ( 3 ) GLOBAL_UNCERTAINTY_ASSIGNED_CONTEXT ( ( #275 ) ) GLOBAL_UNIT_ASSIGNED_CONTEXT ( ( #258, #248, #236 ) ) REPRESENTATION_CONTEXT ( 'NONE', 'WORKASPACE' ) );
#212 = AXIS2_PLACEMENT_3D ( 'NONE', #129, #128, #127 ) ;
#213 = EDGE_CURVE ( 'NONE', #153, #202, #115, .T. ) ;
#214 = VECTOR ( 'NONE', #135, 1000.000000000000000 ) ;
#215 = ORIENTED_EDGE ( 'NONE', *, *, #196, .F. ) ;
#216 = ORIENTED_EDGE ( 'NONE', *, *, #234, .F. ) ;
#217 = ORIENTED_EDGE ( 'NONE', *, *, #213, .T. ) ;
#218 = ORIENTED_EDGE ( 'NONE', *, *, #187, .T. ) ;
#219 = ORIENTED_EDGE ( 'NONE', *, *, #169, .F. ) ;
#220 = EDGE_CURVE ( 'NONE', #230, #148, #99, .T. ) ;
#221 = ORIENTED_EDGE ( 'NONE', *, *, #213, .F. ) ;
#222 = CLOSED_SHELL ( 'NONE', ( #181, #92, #114, #253, #228, #68, #241, #149, #255 ) ) ;
#223 = ORIENTED_EDGE ( 'NONE', *, *, #234, .T. ) ;
#224 = ORIENTED_EDGE ( 'NONE', *, *, #83, .T. ) ;
#225 = EDGE_LOOP ( 'NONE', ( #188, #186, #163, #161 ) ) ;
#226 = EDGE_LOOP ( 'NONE', ( #216, #217, #218 ) ) ;
#227 = CC_DESIGN_APPROVAL ( #284, ( #93 ) ) ;
#228 = ADVANCED_FACE ( 'NONE', ( #53 ), #52, .F. ) ;
#229 = APPLICATION_CONTEXT ( 'configuration controlled 3d designs of mechanical parts and assemblies' ) ;
#230 = VERTEX_POINT ( 'NONE', #47 ) ;
#231 = VERTEX_POINT ( 'NONE', #46 ) ;
#232 = VERTEX_POINT ( 'NONE', #45 ) ;
#233 = PERSON_AND_ORGANIZATION ( #306, #58 ) ;
#234 = EDGE_CURVE ( 'NONE', #153, #232, #88, .T. ) ;
#235 = EDGE_LOOP ( 'NONE', ( #158, #155, #219 ) ) ;
#236 =( NAMED_UNIT ( * ) SI_UNIT ( $, .STERADIAN. ) SOLID_ANGLE_UNIT ( ) );
#237 = EDGE_LOOP ( 'NONE', ( #207, #206, #203, #201 ) ) ;
#238 = PERSON_AND_ORGANIZATION_ROLE ( 'classification_officer' ) ;
#239 = VERTEX_POINT ( 'NONE', #37 ) ;
#240 = EDGE_LOOP ( 'NONE', ( #215, #210, #209 ) ) ;
#241 = ADVANCED_FACE ( 'NONE', ( #36 ), #33, .T. ) ;
#242 = APPROVAL_PERSON_ORGANIZATION ( #233, #290, #42 ) ;
#243 = APPLICATION_CONTEXT ( 'configuration controlled 3d designs of mechanical parts and assemblies' ) ;
#244 = CARTESIAN_POINT ( 'NONE',  ( -4.330121813875456013E-16, -207.0280159960652497, -3.535812788544628216 ) ) ;
#245 = DIRECTION ( 'NONE',  ( -0.0000000000000000000, -1.000000000000000000, -0.0000000000000000000 ) ) ;
#246 = EDGE_CURVE ( 'NONE', #231, #148, #35, .T. ) ;
#247 = CALENDAR_DATE ( 2019, 16, 12 ) ;
#248 =( NAMED_UNIT ( * ) PLANE_ANGLE_UNIT ( ) SI_UNIT ( $, .RADIAN. ) );
#249 = PERSON_AND_ORGANIZATION_ROLE ( 'design_supplier' ) ;
#250 = VECTOR ( 'NONE', #3, 1000.000000000000000 ) ;
#251 = AXIS2_PLACEMENT_3D ( 'NONE', #170, #167, #162 ) ;
#252 = DATE_AND_TIME ( #112, #296 ) ;
#253 = ADVANCED_FACE ( 'NONE', ( #27 ), #26, .F. ) ;
#254 = EDGE_CURVE ( 'NONE', #148, #140, #22, .T. ) ;
#255 = ADVANCED_FACE ( 'NONE', ( #19 ), #65, .F. ) ;
#256 = EDGE_CURVE ( 'NONE', #175, #140, #177, .T. ) ;
#257 = PERSON_AND_ORGANIZATION ( #306, #58 ) ;
#258 =( LENGTH_UNIT ( ) NAMED_UNIT ( * ) SI_UNIT ( .MILLI., .METRE. ) );
#259 = PERSON_AND_ORGANIZATION ( #306, #58 ) ;
#260 = APPROVAL_ROLE ( '' ) ;
#261 = CC_DESIGN_APPROVAL ( #290, ( #304 ) ) ;
#262 = EDGE_CURVE ( 'NONE', #230, #175, #8, .T. ) ;
#263 = PERSON_AND_ORGANIZATION ( #306, #58 ) ;
#264 = EDGE_CURVE ( 'NONE', #202, #176, #2, .T. ) ;
#265 = EDGE_CURVE ( 'NONE', #176, #239, #110, .T. ) ;
#266 = AXIS2_PLACEMENT_3D ( 'NONE', #17, #11, #10 ) ;
#267 = APPROVAL_PERSON_ORGANIZATION ( #263, #277, #39 ) ;
#268 = CALENDAR_DATE ( 2019, 16, 12 ) ;
#269 = DIRECTION ( 'NONE',  ( 0.0000000000000000000, 0.0000000000000000000, -1.000000000000000000 ) ) ;
#270 = CALENDAR_DATE ( 2019, 16, 12 ) ;
#271 = APPLICATION_PROTOCOL_DEFINITION ( 'international standard', 'config_control_design', 1994, #243 ) ;
#272 = DATE_TIME_ROLE ( 'classification_date' ) ;
#273 = CC_DESIGN_PERSON_AND_ORGANIZATION_ASSIGNMENT ( #300, #298, ( #305 ) ) ;
#274 = PRODUCT_DEFINITION ( 'BÝLÝNMEYEN', '', #304, #172 ) ;
#275 = UNCERTAINTY_MEASURE_WITH_UNIT (LENGTH_MEASURE( 1.000000000000000082E-05 ), #258, 'distance_accuracy_value', 'NONE');
#276 = DIRECTION ( 'NONE',  ( 0.0000000000000000000, 0.0000000000000000000, -1.000000000000000000 ) ) ;
#277 = APPROVAL ( #289, 'BELÝRTÝLMEMÝÞ' ) ;
#278 = MANIFOLD_SOLID_BREP ( 'Döndür1', #222 ) ;
#279 = LOCAL_TIME ( 14, 41, 11.00000000000000000, #282 ) ;
#280 = DIRECTION ( 'NONE',  ( -0.0000000000000000000, -1.000000000000000000, -0.0000000000000000000 ) ) ;
#281 = APPROVAL_STATUS ( 'not_yet_approved' ) ;
#282 = COORDINATED_UNIVERSAL_TIME_OFFSET ( 3, 0, .AHEAD. ) ;
#283 = CC_DESIGN_PERSON_AND_ORGANIZATION_ASSIGNMENT ( #257, #299, ( #274 ) ) ;
#284 = APPROVAL ( #150, 'BELÝRTÝLMEMÝÞ' ) ;
#285 = AXIS2_PLACEMENT_3D ( 'NONE', #15, #14, #13 ) ;
#286 = CC_DESIGN_APPROVAL ( #277, ( #274 ) ) ;
#287 = CC_DESIGN_DATE_AND_TIME_ASSIGNMENT ( #291, #74, ( #274 ) ) ;
#288 = DIRECTION ( 'NONE',  ( 0.0000000000000000000, 0.0000000000000000000, -1.000000000000000000 ) ) ;
#289 = APPROVAL_STATUS ( 'not_yet_approved' ) ;
#290 = APPROVAL ( #281, 'BELÝRTÝLMEMÝÞ' ) ;
#291 = DATE_AND_TIME ( #247, #179 ) ;
#292 = SECURITY_CLASSIFICATION_LEVEL ( 'unclassified' ) ;
#293 = CC_DESIGN_PERSON_AND_ORGANIZATION_ASSIGNMENT ( #259, #302, ( #304 ) ) ;
#294 = APPROVAL_DATE_TIME ( #252, #284 ) ;
#295 = CC_DESIGN_PERSON_AND_ORGANIZATION_ASSIGNMENT ( #108, #249, ( #304 ) ) ;
#296 = LOCAL_TIME ( 14, 41, 11.00000000000000000, #303 ) ;
#297 = CC_DESIGN_PERSON_AND_ORGANIZATION_ASSIGNMENT ( #77, #238, ( #93 ) ) ;
#298 = PERSON_AND_ORGANIZATION_ROLE ( 'design_owner' ) ;
#299 = PERSON_AND_ORGANIZATION_ROLE ( 'creator' ) ;
#300 = PERSON_AND_ORGANIZATION ( #306, #58 ) ;
#301 = CC_DESIGN_DATE_AND_TIME_ASSIGNMENT ( #197, #272, ( #93 ) ) ;
#302 = PERSON_AND_ORGANIZATION_ROLE ( 'creator' ) ;
#303 = COORDINATED_UNIVERSAL_TIME_OFFSET ( 3, 0, .AHEAD. ) ;
#304 = PRODUCT_DEFINITION_FORMATION_WITH_SPECIFIED_SOURCE ( 'HERHANGÝ', '', #305, .NOT_KNOWN. ) ;
#305 = PRODUCT ( 'End Cap SDR11_001 117 0140 0250', 'End Cap SDR11_001 117 0140 0250', '', ( #29 ) ) ;
#306 = PERSON ( 'BELÝRTÝLMEMÝÞ', 'BELÝRTÝLMEMÝÞ', 'BELÝRTÝLMEMÝÞ', ('BELÝRTÝLMEMÝÞ'), ('BELÝRTÝLMEMÝÞ'), ('BELÝRTÝLMEMÝÞ') ) ;
#307 = PRODUCT_RELATED_PRODUCT_CATEGORY ( 'detail', '', ( #305 ) ) ;
ENDSEC;
END-ISO-10303-21;
